0
SECTION
2
HEADER
9
$INSUNITS
70
4
9
$ACADVER
1
AC1014
9
$HANDSEED
5
FFFF
0
ENDSEC
0
SECTION
2
TABLES
0
TABLE
2
VPORT
5
8
100
AcDbSymbolTable
0
ENDTAB
0
TABLE
2
LTYPE
5
5
100
AcDbSymbolTable
0
LTYPE
5
14
100
AcDbSymbolTableRecord
100
AcDbLinetypeTableRecord
2
BYBLOCK
70
0
0
LTYPE
5
15
100
AcDbSymbolTableRecord
100
AcDbLinetypeTableRecord
2
BYLAYER
70
0
0
ENDTAB
0
TABLE
2
LAYER
5
2
100
AcDbSymbolTable
70
2
0
LAYER
5
50
100
AcDbSymbolTableRecord
100
AcDbLayerTableRecord
2
0
70
0
6
CONTINUOUS
0
ENDTAB
0
TABLE
2
STYLE
5
3
100
AcDbSymbolTable
70
1
0
STYLE
5
11
100
AcDbSymbolTableRecord
100
AcDbTextStyleTableRecord
2
STANDARD
70
0
0
ENDTAB
0
TABLE
2
VIEW
5
6
100
AcDbSymbolTable
70
0
0
ENDTAB
0
TABLE
2
UCS
5
7
100
AcDbSymbolTable
70
0
0
ENDTAB
0
TABLE
2
APPID
5
9
100
AcDbSymbolTable
70
2
0
APPID
5
12
100
AcDbSymbolTableRecord
100
AcDbRegAppTableRecord
2
ACAD
70
0
0
ENDTAB
0
TABLE
2
DIMSTYLE
5
A
100
AcDbSymbolTable
70
1
0
ENDTAB
0
TABLE
2
BLOCK_RECORD
5
1
100
AcDbSymbolTable
70
1
0
BLOCK_RECORD
5
1F
100
AcDbSymbolTableRecord
100
AcDbBlockTableRecord
2
*MODEL_SPACE
0
BLOCK_RECORD
5
1B
100
AcDbSymbolTableRecord
100
AcDbBlockTableRecord
2
*PAPER_SPACE
0
ENDTAB
0
ENDSEC
0
SECTION
2
BLOCKS
0
BLOCK
5
20
100
AcDbEntity
100
AcDbBlockBegin
2
*MODEL_SPACE
0
ENDBLK
5
21
100
AcDbEntity
100
AcDbBlockEnd
0
BLOCK
5
1C
100
AcDbEntity
100
AcDbBlockBegin
2
*PAPER_SPACE
0
ENDBLK
5
1D
100
AcDbEntity
100
AcDbBlockEnd
0
ENDSEC
0
SECTION
2
ENTITIES
0
LWPOLYLINE
5
100
100
AcDbEntity
8
0
100
AcDbPolyline
90
8
70
1
43
0.0
10
76.457500431242863
20
50
10
-53.542499568757151
20
49.999999999999986
42
0.41421356237309503
10
-63.542499568757151
20
39.999999999999986
10
-63.542499568757137
20
-80
42
0.41421356237309503
10
-53.542499568757137
20
-90
10
76.457500431242835
20
-90
42
0.41421356237309503
10
86.457500431242863
20
-79.999999999999986
10
86.457500431242863
20
40
42
0.41421356237309503
0
LINE
5
101
100
AcDbEntity
8
0
100
AcDbLine
10
1.3075004312428455
20
39.999999999999986
30
0
11
21.607500431242848
21
39.999999999999986
31
0
0
LINE
5
102
100
AcDbEntity
8
0
100
AcDbLine
10
21.607500431242848
20
39.999999999999986
30
0
11
21.607500431242848
21
19.699999999999985
31
0
0
LINE
5
103
100
AcDbEntity
8
0
100
AcDbLine
10
21.607500431242848
20
19.699999999999985
30
0
11
1.3075004312428455
21
19.699999999999985
31
0
0
LINE
5
104
100
AcDbEntity
8
0
100
AcDbLine
10
1.3075004312428455
20
19.699999999999985
30
0
11
1.3075004312428455
21
39.999999999999986
31
0
0
LWPOLYLINE
5
105
100
AcDbEntity
8
0
100
AcDbPolyline
90
4
70
1
43
0.0
10
84.291658979643032
20
36.810878451425715
10
28.291658979643017
20
36.810878451425722
10
28.291658979643017
20
-51.189121548574278
10
84.291658979643032
20
-51.189121548574292
0
LWPOLYLINE
5
106
100
AcDbEntity
8
0
100
AcDbPolyline
90
4
70
1
43
0.0
10
-27.1137469939959
20
-28.592561100445756
10
-60.113746993995903
20
-28.592561100445756
10
-60.113746993995903
20
-68.592561100445749
10
-27.1137469939959
20
-68.592561100445749
0
LINE
5
107
100
AcDbEntity
8
0
100
AcDbLine
10
-50.274837816290798
20
48.302298319157224
30
0
11
-4.2748378162907841
21
48.302298319157224
31
0
0
LINE
5
108
100
AcDbEntity
8
0
100
AcDbLine
10
-4.2748378162907841
20
48.302298319157224
30
0
11
-4.2748378162907841
21
-22.697701680842783
31
0
0
LINE
5
109
100
AcDbEntity
8
0
100
AcDbLine
10
-4.2748378162907841
20
-22.697701680842783
30
0
11
-50.274837816290798
21
-22.697701680842783
31
0
0
CIRCLE
5
110
100
AcDbEntity
8
0
100
AcDbCircle
10
-53.542499568757151
20
39.999999999999986
30
0
40
1.5000000000000036
0
CIRCLE
5
111
100
AcDbEntity
8
0
100
AcDbCircle
10
76.457500431242863
20
40
30
0
40
1.5000000000000036
0
CIRCLE
5
112
100
AcDbEntity
8
0
100
AcDbCircle
10
-53.542499568757137
20
-80
30
0
40
1.5000000000000036
0
CIRCLE
5
113
100
AcDbEntity
8
0
100
AcDbCircle
10
76.457500431242835
20
-79.999999999999986
30
0
40
1.4999999999999973
0
LWPOLYLINE
5
114
100
AcDbEntity
8
0
100
AcDbPolyline
90
4
70
1
43
0.0
10
0
20
-30
10
-20
20
-30
10
-20
20
-70
10
0
20
-70
0
LINE
5
115
100
AcDbEntity
8
0
100
AcDbLine
10
11.457500431242845
20
19.699999999999985
30
0
11
11.457500431242845
21
-17.485000000000017
31
0
0
CIRCLE
5
116
100
AcDbEntity
8
0
100
AcDbCircle
10
11.457500431242845
20
-17.485000000000017
30
0
40
11.5
0
LWPOLYLINE
5
117
100
AcDbEntity
8
0
100
AcDbPolyline
90
4
70
1
43
0.0
10
-37.000000551342964
20
13.000000193715099
10
-47.000000700354605
20
13.000000193715099
10
-47.000000700354605
20
-6.0000000894069672
10
-37.000000551342964
20
-6.0000000894069672
0
LINE
5
118
100
AcDbEntity
8
0
100
AcDbLine
10
1.3075004312428455
20
39.999999999999986
30
0
11
21.607500431242848
21
39.999999999999986
31
0
0
LINE
5
119
100
AcDbEntity
8
0
100
AcDbLine
10
21.607500431242848
20
39.999999999999986
30
0
11
21.607500431242848
21
19.699999999999985
31
0
0
LINE
5
120
100
AcDbEntity
8
0
100
AcDbLine
10
21.607500431242848
20
19.699999999999985
30
0
11
1.3075004312428455
21
19.699999999999985
31
0
0
LINE
5
121
100
AcDbEntity
8
0
100
AcDbLine
10
1.3075004312428455
20
19.699999999999985
30
0
11
1.3075004312428455
21
39.999999999999986
31
0
0
LINE
5
122
100
AcDbEntity
8
0
100
AcDbLine
10
56.342604404802714
20
49.954179721787952
30
0
11
56.342604404802714
21
5.9541797217880035
31
0
0
LINE
5
123
100
AcDbEntity
8
0
100
AcDbLine
10
56.342604404802714
20
5.9541797217880035
30
0
11
86.342604404802685
21
5.9541797217879919
31
0
0
CIRCLE
5
124
100
AcDbEntity
8
0
100
AcDbCircle
10
56.342604404802714
20
5.9541797217880035
30
0
40
3.5000000000000027
0
LINE
5
125
100
AcDbEntity
8
0
100
AcDbLine
10
56.342604404802714
20
5.9541797217880035
30
0
11
48.892604404802711
21
5.954179721788007
31
0
0
CIRCLE
5
126
100
AcDbEntity
8
0
100
AcDbCircle
10
48.892604404802711
20
5.954179721788007
30
0
40
1.4500000000000002
0
ENDSEC
0
SECTION
2
OBJECTS
0
DICTIONARY
5
C
100
AcDbDictionary
3
ACAD_GROUP
350
D
3
ACAD_MLINESTYLE
350
17
0
DICTIONARY
5
D
100
AcDbDictionary
0
DICTIONARY
5
1A
330
C
100
AcDbDictionary
0
DICTIONARY
5
17
100
AcDbDictionary
0
ENDSEC
0
EOF
